  0
SECTION
  2
HEADER
  9
$ACADVER
  1
AC1009
  9
$INSBASE
 10
104.1929901423877
 20
72.49999999999684
 30
0.0
  9
$EXTMIN
 10
104.1929901423877
 20
72.49999999999684
 30
0.0
  9
$EXTMAX
 10
172.1929901423877
 20
151.3284271247461
 30
0.0
  9
$LIMMIN
 10
0.0
 20
0.0
  9
$LIMMAX
 10
420.0
 20
297.0
  9
$ORTHOMODE
 70
     0
  9
$REGENMODE
 70
     0
  9
$FILLMODE
 70
     1
  9
$QTEXTMODE
 70
     0
  9
$MIRRTEXT
 70
     0
  9
$DRAGMODE
 70
     2
  9
$LTSCALE
 40
1.0
  9
$OSMODE
 70
     0
  9
$ATTMODE
 70
     1
  9
$TEXTSIZE
 40
3.5
  9
$TRACEWID
 40
0.1
  9
$TEXTSTYLE
  7
STANDARD
  9
$CLAYER
  8
0
  9
$CELTYPE
  6
BYLAYER
  9
$CECOLOR
 62
   256
  9
$DIMSCALE
 40
1.0
  9
$DIMASZ
 40
2.0
  9
$DIMEXO
 40
1.0
  9
$DIMDLI
 40
8.0
  9
$DIMRND
 40
0.0
  9
$DIMDLE
 40
0.0
  9
$DIMEXE
 40
2.0
  9
$DIMTP
 40
0.1
  9
$DIMTM
 40
0.1
  9
$DIMTXT
 40
3.5
  9
$DIMCEN
 40
2.0
  9
$DIMTSZ
 40
0.0
  9
$DIMTOL
 70
     0
  9
$DIMLIM
 70
     0
  9
$DIMTIH
 70
     0
  9
$DIMTOH
 70
     0
  9
$DIMSE1
 70
     0
  9
$DIMSE2
 70
     0
  9
$DIMTAD
 70
     1
  9
$DIMZIN
 70
     0
  9
$DIMBLK
  1

  9
$DIMASO
 70
     1
  9
$DIMSHO
 70
     0
  9
$DIMPOST
  1

  9
$DIMAPOST
  1

  9
$DIMALT
 70
     0
  9
$DIMALTD
 70
     2
  9
$DIMALTF
 40
25.39999999999999
  9
$DIMLFAC
 40
1.0
  9
$DIMTOFL
 70
     0
  9
$DIMTVP
 40
0.0
  9
$DIMTIX
 70
     0
  9
$DIMSOXD
 70
     0
  9
$DIMSAH
 70
     0
  9
$DIMBLK1
  1

  9
$DIMBLK2
  1

  9
$DIMSTYLE
  2
*UNNAMED
  9
$DIMCLRD
 70
     0
  9
$DIMCLRE
 70
     0
  9
$DIMCLRT
 70
     0
  9
$DIMTFAC
 40
1.0
  9
$DIMGAP
 40
0.09
  9
$LUNITS
 70
     2
  9
$LUPREC
 70
     3
  9
$SKETCHINC
 40
0.1
  9
$FILLETRAD
 40
20.0
  9
$AUNITS
 70
     0
  9
$AUPREC
 70
     1
  9
$MENU
  1

  9
$ELEVATION
 40
0.0
  9
$PELEVATION
 40
0.0
  9
$THICKNESS
 40
0.0
  9
$LIMCHECK
 70
     0
  9
$BLIPMODE
 70
     0
  9
$CHAMFERA
 40
0.0
  9
$CHAMFERB
 40
0.0
  9
$SKPOLY
 70
     1
  9
$TDCREATE
 40
2448538.570373263
  9
$TDUPDATE
 40
2449393.436271064
  9
$TDINDWG
 40
0.0016952546
  9
$TDUSRTIMER
 40
0.0016952546
  9
$USRTIMER
 70
     1
  9
$ANGBASE
 50
0.0
  9
$ANGDIR
 70
     0
  9
$PDMODE
 70
     0
  9
$PDSIZE
 40
0.0
  9
$PLINEWID
 40
0.0
  9
$COORDS
 70
     2
  9
$SPLFRAME
 70
     0
  9
$SPLINETYPE
 70
     6
  9
$SPLINESEGS
 70
     8
  9
$ATTDIA
 70
     1
  9
$ATTREQ
 70
     1
  9
$HANDLING
 70
     0
  9
$HANDSEED
  5
A5
  9
$SURFTAB1
 70
     6
  9
$SURFTAB2
 70
     6
  9
$SURFTYPE
 70
     6
  9
$SURFU
 70
     6
  9
$SURFV
 70
     6
  9
$UCSNAME
  2

  9
$UCSORG
 10
0.0
 20
0.0
 30
0.0
  9
$UCSXDIR
 10
1.0
 20
0.0
 30
0.0
  9
$UCSYDIR
 10
0.0
 20
1.0
 30
0.0
  9
$PUCSNAME
  2

  9
$PUCSORG
 10
0.0
 20
0.0
 30
0.0
  9
$PUCSXDIR
 10
1.0
 20
0.0
 30
0.0
  9
$PUCSYDIR
 10
0.0
 20
1.0
 30
0.0
  9
$USERI1
 70
     0
  9
$USERI2
 70
     3
  9
$USERI3
 70
    15
  9
$USERI4
 70
     0
  9
$USERI5
 70
     0
  9
$USERR1
 40
1.0
  9
$USERR2
 40
1.0
  9
$USERR3
 40
0.0
  9
$USERR4
 40
1.0
  9
$USERR5
 40
0.0
  9
$WORLDVIEW
 70
     1
  9
$SHADEDGE
 70
     3
  9
$SHADEDIF
 70
    70
  9
$TILEMODE
 70
     1
  9
$MAXACTVP
 70
    16
  9
$PINSBASE
 10
0.0
 20
0.0
 30
0.0
  9
$PLIMCHECK
 70
     0
  9
$PEXTMIN
 10
1.000000000000000E+20
 20
1.000000000000000E+20
 30
1.000000000000000E+20
  9
$PEXTMAX
 10
-1.000000000000000E+20
 20
-1.000000000000000E+20
 30
-1.000000000000000E+20
  9
$PLIMMIN
 10
0.0
 20
0.0
  9
$PLIMMAX
 10
12.0
 20
9.0
  9
$UNITMODE
 70
     0
  9
$VISRETAIN
 70
     0
  9
$PLINEGEN
 70
     0
  9
$PSLTSCALE
 70
     0
  9
$TREEDEPTH
 70
  3020
  9
$DWGCODEPAGE
  3
undefined
  0
ENDSEC
  0
SECTION
  2
TABLES
  0
TABLE
  2
VPORT
 70
     2
  0
VPORT
  2
*ACTIVE
 70
     0
 10
0.0
 20
0.0
 11
1.0
 21
1.0
 12
158.0411829134742
 22
114.7115070451282
 13
0.0
 23
0.0
 14
1.0
 24
1.0
 15
10.0
 25
10.0
 16
0.0
 26
0.0
 36
1.0
 17
0.0
 27
0.0
 37
0.0
 40
84.42301409026281
 41
1.275675675675675
 42
50.0
 43
0.0
 44
0.0
 50
0.0
 51
0.0
 71
     0
 72
   100
 73
     1
 74
     0
 75
     0
 76
     0
 77
     0
 78
     0
  0
ENDTAB
  0
TABLE
  2
LTYPE
 70
     2
  0
LTYPE
  2
AUSGEZOGEN
 70
    64
  3
Solid line
 72
    65
 73
     0
 40
0.0
  0
LTYPE
  2
ITEM-STRICHPGR
 70
    64
  3
____ . ____ . ____ . ____ . ____ . ____ . ____
 72
    65
 73
     4
 40
15.0
 49
10.0
 49
-2.5
 49
0.0
 49
-2.5
  0
ENDTAB
  0
TABLE
  2
LAYER
 70
     4
  0
LAYER
  2
0
 70
     0
 62
     7
  6
AUSGEZOGEN
  0
LAYER
  2
ITEM_50
 70
    64
 62
     7
  6
AUSGEZOGEN
  0
LAYER
  2
ITEM_HILFE
 70
    64
 62
     3
  6
AUSGEZOGEN
  0
LAYER
  2
ITEM_STPG
 70
    64
 62
     4
  6
ITEM-STRICHPGR
  0
ENDTAB
  0
TABLE
  2
STYLE
 70
     1
  0
STYLE
  2
STANDARD
 70
     0
 40
0.0
 41
1.0
 50
0.0
 71
     0
 42
3.5
  3
iso
  4

  0
ENDTAB
  0
TABLE
  2
VIEW
 70
     0
  0
ENDTAB
  0
TABLE
  2
UCS
 70
     0
  0
ENDTAB
  0
TABLE
  2
APPID
 70
     1
  0
APPID
  2
ACAD
 70
    64
  0
ENDTAB
  0
TABLE
  2
DIMSTYLE
 70
     0
  0
ENDTAB
  0
ENDSEC
  0
SECTION
  2
BLOCKS
  0
ENDSEC
  0
SECTION
  2
ENTITIES
  0
LINE
  8
ITEM_50
 10
109.1929901423844
 20
72.49999999999685
 30
0.0
 11
109.1929901423844
 21
82.49999999999685
 31
0.0
  0
LINE
  8
ITEM_50
 10
109.1929901423844
 20
82.49999999999685
 30
0.0
 11
167.1929901423844
 21
82.49999999999684
 31
0.0
  0
LINE
  8
ITEM_50
 10
167.1929901423844
 20
82.49999999999684
 30
0.0
 11
167.1929901423844
 21
72.49999999999684
 31
0.0
  0
LINE
  8
ITEM_50
 10
167.1929901423844
 20
72.49999999999684
 30
0.0
 11
109.1929901423844
 21
72.49999999999685
 31
0.0
  0
LINE
  8
ITEM_50
 10
133.1929901423844
 20
72.49999999999685
 30
0.0
 11
133.1929901423844
 21
82.49999999999685
 31
0.0
  0
LINE
  8
ITEM_50
 10
125.1929901423844
 20
72.49999999999685
 30
0.0
 11
125.1929901423844
 21
82.49999999999685
 31
0.0
  0
POINT
  8
ITEM_HILFE
 10
129.1929901423877
 20
146.0
 30
0.0
  0
POINT
  8
ITEM_HILFE
 10
129.1929901423877
 20
150.5
 30
0.0
  0
LINE
  8
ITEM_STPG
 10
172.1929901423877
 20
122.5
 30
0.0
 11
104.1929901423877
 21
122.5
 31
0.0
  0
POINT
  8
ITEM_HILFE
 10
149.1929901423876
 20
98.49999999999994
 30
0.0
  0
LINE
  8
ITEM_50
 10
131.3568419736417
 20
138.25
 30
0.0
 11
127.0813138226907
 21
138.25
 31
0.0
  0
ARC
  8
ITEM_50
 10
134.6929901423876
 20
149.0
 30
0.0
 40
1.5
 50
90.00000000000001
 51
180.0
  0
LINE
  8
ITEM_50
 10
133.1929901423876
 20
149.0
 30
0.0
 11
133.1929901423876
 21
147.25
 31
0.0
  0
ARC
  8
ITEM_50
 10
134.4429901423876
 20
147.25
 30
0.0
 40
1.25
 50
180.0
 51
270.0
  0
LINE
  8
ITEM_50
 10
134.4429901423876
 20
146.0
 30
0.0
 11
138.192988235039
 21
146.0
 31
0.0
  0
ARC
  8
ITEM_50
 10
138.1929901423876
 20
145.0
 30
0.0
 40
1.0
 50
324.0201994025252
 51
90.00010928302673
  0
ARC
  8
ITEM_50
 10
131.3046664620844
 20
142.25
 30
0.0
 40
4.0
 50
270.0
 51
306.641928141215
  0
ARC
  8
ITEM_50
 10
118.7716101708202
 20
159.1
 30
0.0
 40
25.0
 50
306.6419281412138
 51
324.0201994025256
  0
ARC
  8
ITEM_50
 10
139.614370113955
 20
159.1
 30
0.0
 40
25.0
 50
215.9798005974743
 51
233.3580718587861
  0
ARC
  8
ITEM_50
 10
127.0813138226907
 20
142.25
 30
0.0
 40
4.0
 50
233.3580718587849
 51
270.0
  0
ARC
  8
ITEM_50
 10
120.1929901423876
 20
145.0
 30
0.0
 40
1.0
 50
89.99989071697328
 51
215.9798005974747
  0
LINE
  8
ITEM_50
 10
123.9429901423876
 20
146.0
 30
0.0
 11
120.1929920497362
 21
146.0
 31
0.0
  0
ARC
  8
ITEM_50
 10
123.9429901423876
 20
147.25
 30
0.0
 40
1.25
 50
270.0
 51
0.000000000000007
  0
LINE
  8
ITEM_50
 10
125.1929901423876
 20
149.0
 30
0.0
 11
125.1929901423876
 21
147.25
 31
0.0
  0
ARC
  8
ITEM_50
 10
123.6929901423876
 20
149.0
 30
0.0
 40
1.5
 50
0.000000000000007
 51
90.0
  0
LINE
  8
ITEM_50
 10
121.4429901423876
 20
112.6638518312541
 30
0.0
 11
121.4429901423876
 21
108.3883236803031
 31
0.0
  0
ARC
  8
ITEM_50
 10
110.6929901423876
 20
116.0
 30
0.0
 40
1.5
 50
180.0
 51
270.0
  0
LINE
  8
ITEM_50
 10
110.6929901423876
 20
114.5
 30
0.0
 11
112.4429901423876
 21
114.5
 31
0.0
  0
ARC
  8
ITEM_50
 10
112.4429901423876
 20
115.75
 30
0.0
 40
1.25
 50
270.0
 51
0.000000000000007
  0
LINE
  8
ITEM_50
 10
113.6929901423876
 20
115.75
 30
0.0
 11
113.6929901423876
 21
119.4999980926513
 31
0.0
  0
ARC
  8
ITEM_50
 10
114.6929901423876
 20
119.5
 30
0.0
 40
1.0
 50
54.02019940252525
 51
180.0001092830267
  0
ARC
  8
ITEM_50
 10
117.4429901423876
 20
112.6116763196968
 30
0.0
 40
4.0
 50
0.000000000000007
 51
36.64192814121506
  0
ARC
  8
ITEM_50
 10
100.5929901423876
 20
100.0786200284326
 30
0.0
 40
25.0
 50
36.64192814121383
 51
54.02019940252571
  0
ARC
  8
ITEM_50
 10
100.5929901423876
 20
120.9213799715673
 30
0.0
 40
25.0
 50
305.9798005974743
 51
323.3580718587861
  0
ARC
  8
ITEM_50
 10
117.4429901423876
 20
108.3883236803031
 30
0.0
 40
4.0
 50
323.3580718587849
 51
0.0
  0
ARC
  8
ITEM_50
 10
114.6929901423876
 20
101.5
 30
0.0
 40
1.0
 50
179.9998907169732
 51
305.9798005974747
  0
LINE
  8
ITEM_50
 10
113.6929901423876
 20
105.25
 30
0.0
 11
113.6929901423876
 21
101.5000019073486
 31
0.0
  0
ARC
  8
ITEM_50
 10
112.4429901423876
 20
105.25
 30
0.0
 40
1.25
 50
0.0
 51
90.0
  0
LINE
  8
ITEM_50
 10
110.6929901423876
 20
106.5
 30
0.0
 11
112.4429901423876
 21
106.5
 31
0.0
  0
ARC
  8
ITEM_50
 10
110.6929901423876
 20
105.0
 30
0.0
 40
1.5
 50
90.0
 51
179.9999999999999
  0
LINE
  8
ITEM_50
 10
163.1929901423877
 20
150.5
 30
0.0
 11
134.6929901423877
 21
150.5
 31
0.0
  0
LINE
  8
ITEM_50
 10
123.6929901423877
 20
150.5
 30
0.0
 11
113.1929901423877
 21
150.5
 31
0.0
  0
LINE
  8
ITEM_50
 10
109.1929901423877
 20
146.5
 30
0.0
 11
109.1929901423877
 21
116.0
 31
0.0
  0
ARC
  8
ITEM_50
 10
113.1929901423877
 20
146.5
 30
0.0
 40
4.0
 50
90.00000000000008
 51
180.0
  0
CIRCLE
  8
ITEM_50
 10
129.1929901423877
 20
110.5
 30
0.0
 40
3.399999999999999
  0
LINE
  8
ITEM_50
 10
163.1929901423877
 20
92.5
 30
0.0
 11
160.8929901423877
 21
92.5
 31
0.0
  0
LINE
  8
ITEM_50
 10
109.1929901423876
 20
105.0
 30
0.0
 11
109.1929901423876
 21
96.5
 31
0.0
  0
ARC
  8
ITEM_50
 10
113.1929901423876
 20
96.5
 30
0.0
 40
4.0
 50
180.0
 51
270.0
  0
LINE
  8
ITEM_50
 10
167.1929901423877
 20
146.5
 30
0.0
 11
167.1929901423877
 21
96.5
 31
0.0
  0
ARC
  8
ITEM_50
 10
163.1929901423877
 20
146.5
 30
0.0
 40
4.0
 50
0.0000000000000579
 51
90.0
  0
ARC
  8
ITEM_50
 10
163.1929901423877
 20
96.5
 30
0.0
 40
4.0
 50
270.0000000000001
 51
0.000000000000007
  0
LINE
  8
ITEM_50
 10
163.1929901423877
 20
140.5
 30
0.0
 11
163.1929901423877
 21
98.05000000000001
 31
0.0
  0
LINE
  8
ITEM_50
 10
159.1929901423877
 20
144.5
 30
0.0
 11
147.49984439188
 21
144.4999999999999
 31
0.0
  0
ARC
  8
ITEM_50
 10
159.1929901423877
 20
140.5
 30
0.0
 40
4.0
 50
0.0000000000000579
 51
90.0
  0
ARC
  8
ITEM_50
 10
147.49984439188
 20
140.4999999999999
 30
0.0
 40
4.0
 50
90.0
 51
135.0
  0
LINE
  8
ITEM_50
 10
135.0929901423875
 20
106.0
 30
0.0
 11
135.0929901423875
 21
98.03704261489133
 31
0.0
  0
LINE
  8
ITEM_50
 10
135.0929901423875
 20
106.0
 30
0.0
 11
139.1929901423877
 21
110.0999999999999
 31
0.0
  0
LINE
  8
ITEM_50
 10
159.3929901423877
 20
96.75
 30
0.0
 11
159.3929901423877
 21
94.0
 31
0.0
  0
LINE
  8
ITEM_50
 10
139.2929901423875
 20
94.0
 30
0.0
 11
139.2929901423875
 21
96.65000539479655
 31
0.0
  0
LINE
  8
ITEM_50
 10
137.7929901423875
 20
92.5
 30
0.0
 11
113.1929901423876
 21
92.5
 31
0.0
  0
LINE
  8
ITEM_50
 10
164.5496063677844
 20
95.75027177123996
 30
0.0
 11
164.8858121172273
 21
95.16794633140801
 31
0.0
  0
LINE
  8
ITEM_50
 10
163.1639657217257
 20
94.9502717712474
 30
0.0
 11
163.5001686513527
 21
94.36795121547999
 31
0.0
  0
LINE
  8
ITEM_50
 10
163.5001686513527
 20
94.36795121547999
 30
0.0
 11
164.8858084423662
 21
95.16795269645416
 31
0.0
  0
ARC
  8
ITEM_50
 10
163.1929901423877
 20
96.5
 30
0.0
 40
1.55
 50
153.1935982280363
 51
268.9270490279275
  0
ARC
  8
ITEM_50
 10
160.8929901423877
 20
94.0
 30
0.0
 40
1.5
 50
180.0
 51
270.0
  0
ARC
  8
ITEM_50
 10
160.6429901423876
 20
96.75
 30
0.0
 40
1.25
 50
21.05179863569655
 51
180.0
  0
ARC
  8
ITEM_50
 10
163.1929901423877
 20
96.5
 30
0.0
 40
1.55
 50
331.0729509722295
 51
90.0
  0
ARC
  8
ITEM_50
 10
135.2929901423876
 20
96.5
 30
0.0
 40
1.55
 50
97.41367380153981
 51
208.9270490277704
  0
LINE
  8
ITEM_50
 10
134.9858116334225
 20
94.36795121547999
 30
0.0
 11
133.600171842409
 21
95.16795269645416
 31
0.0
  0
LINE
  8
ITEM_50
 10
135.3220145630495
 20
94.9502717712474
 30
0.0
 11
134.9858116334225
 21
94.36795121547999
 31
0.0
  0
LINE
  8
ITEM_50
 10
133.9363739169909
 20
95.75027177123996
 30
0.0
 11
133.6001681675479
 21
95.16794633140801
 31
0.0
  0
ARC
  8
ITEM_50
 10
137.7929901423875
 20
94.0
 30
0.0
 40
1.5
 50
270.0000000000001
 51
0.000000000000007
  0
ARC
  8
ITEM_50
 10
137.9429901423895
 20
96.64999999999997
 30
0.0
 40
1.35
 50
359.9998380992196
 51
157.6778342212249
  0
ARC
  8
ITEM_50
 10
135.2929901423876
 20
96.5
 30
0.0
 40
1.55
 50
271.0729509720725
 51
25.31407801100461
  0
LINE
  8
ITEM_50
 10
132.2442194028657
 20
132.0
 30
0.0
 11
134.0929901423876
 21
132.0
 31
0.0
  0
LINE
  8
ITEM_50
 10
132.2442194028657
 20
129.0
 30
0.0
 11
134.0929901423876
 21
129.0
 31
0.0
  0
LINE
  8
ITEM_50
 10
134.0929901423876
 20
129.0
 30
0.0
 11
134.0929901423876
 21
132.0
 31
0.0
  0
ARC
  8
ITEM_50
 10
129.1929901423877
 20
130.5
 30
0.0
 40
3.399999999999999
 50
206.178968703989
 51
333.8210312960109
  0
LINE
  8
ITEM_50
 10
126.1417608819072
 20
129.0
 30
0.0
 11
114.6929901423877
 21
129.0
 31
0.0
  0
LINE
  8
ITEM_50
 10
113.6929901423878
 20
140.9357864376269
 30
0.0
 11
113.6929901423877
 21
130.0
 31
0.0
  0
LINE
  8
ITEM_50
 10
125.0429901423877
 20
132.0
 30
0.0
 11
115.4000969235743
 21
141.6428932188134
 31
0.0
  0
LINE
  8
ITEM_50
 10
126.1417608819096
 20
132.0
 30
0.0
 11
125.0429901423877
 21
132.0
 31
0.0
  0
ARC
  8
ITEM_50
 10
129.1929901423877
 20
130.5
 30
0.0
 40
3.399999999999999
 50
26.17896870400676
 51
153.8210312959932
  0
ARC
  8
ITEM_50
 10
114.6929901423878
 20
140.9357864376269
 30
0.0
 40
1.0
 50
45.00000000000015
 51
179.9999999999998
  0
ARC
  8
ITEM_50
 10
114.6929901423877
 20
130.0
 30
0.0
 40
1.0
 50
179.9999999999996
 51
270.0
  0
LINE
  8
ITEM_50
 10
130.1929901423876
 20
102.75
 30
0.0
 11
124.507203704762
 21
102.75
 31
0.0
  0
LINE
  8
ITEM_50
 10
131.1929901423876
 20
101.75
 30
0.0
 11
131.1929901423876
 21
97.5
 31
0.0
  0
LINE
  8
ITEM_50
 10
130.1929901423876
 20
96.5
 30
0.0
 11
120.257203704762
 21
96.5
 31
0.0
  0
LINE
  8
ITEM_50
 10
119.5500969235754
 20
98.20710678118655
 30
0.0
 11
123.8000969235754
 21
102.4571067811866
 31
0.0
  0
ARC
  8
ITEM_50
 10
120.257203704762
 20
97.5
 30
0.0
 40
1.0
 50
134.9999999999998
 51
270.0
  0
ARC
  8
ITEM_50
 10
130.1929901423876
 20
97.5
 30
0.0
 40
1.0
 50
270.0000000000001
 51
0.000000000000007
  0
ARC
  8
ITEM_50
 10
130.1929901423876
 20
101.75
 30
0.0
 40
1.0
 50
0.0000000000000579
 51
90.0
  0
ARC
  8
ITEM_50
 10
124.507203704762
 20
101.75
 30
0.0
 40
1.0
 50
90.0
 51
135.0
  0
LINE
  8
ITEM_50
 10
139.1929901423876
 20
137.85
 30
0.0
 11
139.1929901423877
 21
110.1
 31
0.0
  0
LINE
  8
ITEM_50
 10
139.1929901423876
 20
137.85
 30
0.0
 11
144.6714172671338
 21
143.3284271247461
 31
0.0
  0
POINT
  8
ITEM_HILFE
 10
167.1929901423877
 20
92.5
 30
0.0
  0
POINT
  8
ITEM_HILFE
 10
167.1929901423877
 20
150.5
 30
0.0
  0
POINT
  8
ITEM_HILFE
 10
109.1929901423878
 20
150.5
 30
0.0
  0
POINT
  8
ITEM_HILFE
 10
109.1929901423878
 20
92.5
 30
0.0
  0
POINT
  8
ITEM_HILFE
 10
109.1929901423878
 20
110.5
 30
0.0
  0
POINT
  8
ITEM_HILFE
 10
113.6929901423876
 20
110.5
 30
0.0
  0
ENDSEC
  0
EOF
